ISO-10303-21;
HEADER;
/* Generated by software containing ST-Developer
 * from STEP Tools, Inc. (www.steptools.com) 
 */

FILE_DESCRIPTION(
/* description */ (''),
/* implementation_level */ '2;1');

FILE_NAME(
/* name */ 'bed riser.step',
/* time_stamp */ '2025-09-18T14:38:38+12:00',
/* author */ (''),
/* organization */ (''),
/* preprocessor_version */ 'ST-DEVELOPER v20.1',
/* originating_system */ 'Autodesk Translation Framework v14.17.0.0',
/* authorisation */ '');

FILE_SCHEMA (('AUTOMOTIVE_DESIGN { 1 0 10303 214 3 1 1 }'));
ENDSEC;

DATA;
#10=MECHANICAL_DESIGN_GEOMETRIC_PRESENTATION_REPRESENTATION('',(#13),#218);
#11=SHAPE_REPRESENTATION_RELATIONSHIP('SRR','None',#225,#12);
#12=ADVANCED_BREP_SHAPE_REPRESENTATION('',(#14),#217);
#13=STYLED_ITEM('',(#234),#14);
#14=MANIFOLD_SOLID_BREP('Body1',#111);
#15=TOROIDAL_SURFACE('',#132,35.,1.);
#16=TOROIDAL_SURFACE('',#139,26.,8.);
#17=PLANE('',#131);
#18=PLANE('',#142);
#19=CYLINDRICAL_SURFACE('',#128,36.);
#20=CYLINDRICAL_SURFACE('',#136,34.);
#21=FACE_OUTER_BOUND('',#28,.T.);
#22=FACE_OUTER_BOUND('',#29,.T.);
#23=FACE_OUTER_BOUND('',#30,.T.);
#24=FACE_OUTER_BOUND('',#31,.T.);
#25=FACE_OUTER_BOUND('',#32,.T.);
#26=FACE_OUTER_BOUND('',#33,.T.);
#27=FACE_OUTER_BOUND('',#34,.T.);
#28=EDGE_LOOP('',(#75,#76,#77,#78));
#29=EDGE_LOOP('',(#79,#80,#81,#82,#83));
#30=EDGE_LOOP('',(#84));
#31=EDGE_LOOP('',(#85,#86,#87,#88,#89,#90));
#32=EDGE_LOOP('',(#91,#92,#93,#94,#95,#96));
#33=EDGE_LOOP('',(#97,#98,#99,#100,#101));
#34=EDGE_LOOP('',(#102));
#35=LINE('',#189,#38);
#36=LINE('',#193,#39);
#37=LINE('',#206,#40);
#38=VECTOR('',#149,34.);
#39=VECTOR('',#154,36.);
#40=VECTOR('',#171,34.);
#41=CIRCLE('',#126,32.);
#42=CIRCLE('',#127,36.);
#43=CIRCLE('',#129,36.);
#44=CIRCLE('',#130,36.);
#45=CIRCLE('',#133,1.);
#46=CIRCLE('',#134,34.);
#47=CIRCLE('',#135,34.);
#48=CIRCLE('',#137,34.);
#49=CIRCLE('',#138,34.);
#50=CIRCLE('',#140,8.);
#51=CIRCLE('',#141,26.);
#52=VERTEX_POINT('',#186);
#53=VERTEX_POINT('',#188);
#54=VERTEX_POINT('',#192);
#55=VERTEX_POINT('',#194);
#56=VERTEX_POINT('',#199);
#57=VERTEX_POINT('',#201);
#58=VERTEX_POINT('',#205);
#59=VERTEX_POINT('',#207);
#60=VERTEX_POINT('',#211);
#61=EDGE_CURVE('',#52,#52,#41,.T.);
#62=EDGE_CURVE('',#52,#53,#35,.T.);
#63=EDGE_CURVE('',#53,#53,#42,.T.);
#64=EDGE_CURVE('',#53,#54,#36,.T.);
#65=EDGE_CURVE('',#55,#54,#43,.T.);
#66=EDGE_CURVE('',#54,#55,#44,.T.);
#67=EDGE_CURVE('',#55,#56,#45,.T.);
#68=EDGE_CURVE('',#56,#57,#46,.T.);
#69=EDGE_CURVE('',#57,#56,#47,.T.);
#70=EDGE_CURVE('',#57,#58,#37,.T.);
#71=EDGE_CURVE('',#58,#59,#48,.T.);
#72=EDGE_CURVE('',#59,#58,#49,.T.);
#73=EDGE_CURVE('',#59,#60,#50,.T.);
#74=EDGE_CURVE('',#60,#60,#51,.T.);
#75=ORIENTED_EDGE('',*,*,#61,.T.);
#76=ORIENTED_EDGE('',*,*,#62,.T.);
#77=ORIENTED_EDGE('',*,*,#63,.T.);
#78=ORIENTED_EDGE('',*,*,#62,.F.);
#79=ORIENTED_EDGE('',*,*,#63,.F.);
#80=ORIENTED_EDGE('',*,*,#64,.T.);
#81=ORIENTED_EDGE('',*,*,#65,.F.);
#82=ORIENTED_EDGE('',*,*,#66,.F.);
#83=ORIENTED_EDGE('',*,*,#64,.F.);
#84=ORIENTED_EDGE('',*,*,#61,.F.);
#85=ORIENTED_EDGE('',*,*,#66,.T.);
#86=ORIENTED_EDGE('',*,*,#67,.T.);
#87=ORIENTED_EDGE('',*,*,#68,.T.);
#88=ORIENTED_EDGE('',*,*,#69,.T.);
#89=ORIENTED_EDGE('',*,*,#67,.F.);
#90=ORIENTED_EDGE('',*,*,#65,.T.);
#91=ORIENTED_EDGE('',*,*,#69,.F.);
#92=ORIENTED_EDGE('',*,*,#70,.T.);
#93=ORIENTED_EDGE('',*,*,#71,.T.);
#94=ORIENTED_EDGE('',*,*,#72,.T.);
#95=ORIENTED_EDGE('',*,*,#70,.F.);
#96=ORIENTED_EDGE('',*,*,#68,.F.);
#97=ORIENTED_EDGE('',*,*,#71,.F.);
#98=ORIENTED_EDGE('',*,*,#72,.F.);
#99=ORIENTED_EDGE('',*,*,#73,.T.);
#100=ORIENTED_EDGE('',*,*,#74,.T.);
#101=ORIENTED_EDGE('',*,*,#73,.F.);
#102=ORIENTED_EDGE('',*,*,#74,.F.);
#103=CONICAL_SURFACE('',#125,34.,0.785398163397448);
#104=ADVANCED_FACE('',(#21),#103,.T.);
#105=ADVANCED_FACE('',(#22),#19,.T.);
#106=ADVANCED_FACE('',(#23),#17,.F.);
#107=ADVANCED_FACE('',(#24),#15,.T.);
#108=ADVANCED_FACE('',(#25),#20,.F.);
#109=ADVANCED_FACE('',(#26),#16,.F.);
#110=ADVANCED_FACE('',(#27),#18,.T.);
#111=CLOSED_SHELL('',(#104,#105,#106,#107,#108,#109,#110));
#112=DERIVED_UNIT_ELEMENT(#114,1.);
#113=DERIVED_UNIT_ELEMENT(#220,-3.);
#114=(
MASS_UNIT()
NAMED_UNIT(*)
SI_UNIT(.KILO.,.GRAM.)
);
#115=DERIVED_UNIT((#112,#113));
#116=MEASURE_REPRESENTATION_ITEM('density measure',
POSITIVE_RATIO_MEASURE(7850.),#115);
#117=PROPERTY_DEFINITION_REPRESENTATION(#122,#119);
#118=PROPERTY_DEFINITION_REPRESENTATION(#123,#120);
#119=REPRESENTATION('material name',(#121),#217);
#120=REPRESENTATION('density',(#116),#217);
#121=DESCRIPTIVE_REPRESENTATION_ITEM('Steel','Steel');
#122=PROPERTY_DEFINITION('material property','material name',#227);
#123=PROPERTY_DEFINITION('material property','density of part',#227);
#124=AXIS2_PLACEMENT_3D('',#184,#143,#144);
#125=AXIS2_PLACEMENT_3D('',#185,#145,#146);
#126=AXIS2_PLACEMENT_3D('',#187,#147,#148);
#127=AXIS2_PLACEMENT_3D('',#190,#150,#151);
#128=AXIS2_PLACEMENT_3D('',#191,#152,#153);
#129=AXIS2_PLACEMENT_3D('',#195,#155,#156);
#130=AXIS2_PLACEMENT_3D('',#196,#157,#158);
#131=AXIS2_PLACEMENT_3D('',#197,#159,#160);
#132=AXIS2_PLACEMENT_3D('',#198,#161,#162);
#133=AXIS2_PLACEMENT_3D('',#200,#163,#164);
#134=AXIS2_PLACEMENT_3D('',#202,#165,#166);
#135=AXIS2_PLACEMENT_3D('',#203,#167,#168);
#136=AXIS2_PLACEMENT_3D('',#204,#169,#170);
#137=AXIS2_PLACEMENT_3D('',#208,#172,#173);
#138=AXIS2_PLACEMENT_3D('',#209,#174,#175);
#139=AXIS2_PLACEMENT_3D('',#210,#176,#177);
#140=AXIS2_PLACEMENT_3D('',#212,#178,#179);
#141=AXIS2_PLACEMENT_3D('',#213,#180,#181);
#142=AXIS2_PLACEMENT_3D('',#214,#182,#183);
#143=DIRECTION('axis',(0.,0.,1.));
#144=DIRECTION('refdir',(1.,0.,0.));
#145=DIRECTION('center_axis',(0.,1.,0.));
#146=DIRECTION('ref_axis',(1.,0.,0.));
#147=DIRECTION('center_axis',(0.,1.,0.));
#148=DIRECTION('ref_axis',(1.,0.,0.));
#149=DIRECTION('',(-0.707106781186547,0.707106781186548,-8.65956056235493E-17));
#150=DIRECTION('center_axis',(0.,-1.,0.));
#151=DIRECTION('ref_axis',(1.,0.,0.));
#152=DIRECTION('center_axis',(0.,-1.,0.));
#153=DIRECTION('ref_axis',(1.,0.,0.));
#154=DIRECTION('',(0.,1.,0.));
#155=DIRECTION('center_axis',(0.,1.,0.));
#156=DIRECTION('ref_axis',(1.,0.,0.));
#157=DIRECTION('center_axis',(0.,1.,0.));
#158=DIRECTION('ref_axis',(1.,0.,0.));
#159=DIRECTION('center_axis',(0.,1.,0.));
#160=DIRECTION('ref_axis',(1.,0.,0.));
#161=DIRECTION('center_axis',(0.,-1.,0.));
#162=DIRECTION('ref_axis',(0.,0.,-1.));
#163=DIRECTION('center_axis',(-1.,0.,-1.22464679914735E-16));
#164=DIRECTION('ref_axis',(-1.22464679914735E-16,0.,1.));
#165=DIRECTION('center_axis',(0.,-1.,0.));
#166=DIRECTION('ref_axis',(1.,0.,0.));
#167=DIRECTION('center_axis',(0.,-1.,0.));
#168=DIRECTION('ref_axis',(1.,0.,0.));
#169=DIRECTION('center_axis',(0.,1.,0.));
#170=DIRECTION('ref_axis',(1.,0.,0.));
#171=DIRECTION('',(0.,-1.,0.));
#172=DIRECTION('center_axis',(0.,-1.,0.));
#173=DIRECTION('ref_axis',(1.,0.,0.));
#174=DIRECTION('center_axis',(0.,-1.,0.));
#175=DIRECTION('ref_axis',(1.,0.,0.));
#176=DIRECTION('center_axis',(0.,1.,0.));
#177=DIRECTION('ref_axis',(0.,0.,1.));
#178=DIRECTION('center_axis',(-1.,0.,1.22464679914735E-16));
#179=DIRECTION('ref_axis',(-1.22464679914735E-16,0.,-1.));
#180=DIRECTION('center_axis',(0.,-1.,0.));
#181=DIRECTION('ref_axis',(1.,0.,0.));
#182=DIRECTION('center_axis',(0.,1.,0.));
#183=DIRECTION('ref_axis',(1.,0.,0.));
#184=CARTESIAN_POINT('',(0.,0.,0.));
#185=CARTESIAN_POINT('Origin',(0.,-8.,0.));
#186=CARTESIAN_POINT('',(-32.,-10.,3.91886975727153E-15));
#187=CARTESIAN_POINT('Origin',(0.,-10.,0.));
#188=CARTESIAN_POINT('',(-36.,-6.,-4.40872847693047E-15));
#189=CARTESIAN_POINT('',(-34.,-8.,-4.163799117101E-15));
#190=CARTESIAN_POINT('Origin',(0.,-6.,0.));
#191=CARTESIAN_POINT('Origin',(0.,0.,0.));
#192=CARTESIAN_POINT('',(-36.,14.,4.40872847693047E-15));
#193=CARTESIAN_POINT('',(-36.,0.,-4.40872847693047E-15));
#194=CARTESIAN_POINT('',(-4.40872847693047E-15,14.,36.));
#195=CARTESIAN_POINT('Origin',(0.,14.,0.));
#196=CARTESIAN_POINT('Origin',(0.,14.,0.));
#197=CARTESIAN_POINT('Origin',(0.,-10.,0.));
#198=CARTESIAN_POINT('Origin',(0.,14.,0.));
#199=CARTESIAN_POINT('',(-4.163799117101E-15,14.,34.));
#200=CARTESIAN_POINT('Origin',(-4.28626379701574E-15,14.,35.));
#201=CARTESIAN_POINT('',(-34.,14.,-4.163799117101E-15));
#202=CARTESIAN_POINT('Origin',(0.,14.,0.));
#203=CARTESIAN_POINT('Origin',(0.,14.,0.));
#204=CARTESIAN_POINT('Origin',(0.,8.,0.));
#205=CARTESIAN_POINT('',(-34.,8.,4.163799117101E-15));
#206=CARTESIAN_POINT('',(-34.,8.,4.163799117101E-15));
#207=CARTESIAN_POINT('',(-4.163799117101E-15,8.,-34.));
#208=CARTESIAN_POINT('Origin',(0.,8.,0.));
#209=CARTESIAN_POINT('Origin',(0.,8.,0.));
#210=CARTESIAN_POINT('Origin',(0.,8.,0.));
#211=CARTESIAN_POINT('',(-3.18408167778312E-15,0.,-26.));
#212=CARTESIAN_POINT('Origin',(-3.18408167778312E-15,8.,-26.));
#213=CARTESIAN_POINT('Origin',(0.,0.,0.));
#214=CARTESIAN_POINT('Origin',(0.,0.,0.));
#215=UNCERTAINTY_MEASURE_WITH_UNIT(LENGTH_MEASURE(0.01),#219,
'DISTANCE_ACCURACY_VALUE',
'Maximum model space distance between geometric entities at asserted c
onnectivities');
#216=UNCERTAINTY_MEASURE_WITH_UNIT(LENGTH_MEASURE(0.01),#219,
'DISTANCE_ACCURACY_VALUE',
'Maximum model space distance between geometric entities at asserted c
onnectivities');
#217=(
GEOMETRIC_REPRESENTATION_CONTEXT(3)
GLOBAL_UNCERTAINTY_ASSIGNED_CONTEXT((#215))
GLOBAL_UNIT_ASSIGNED_CONTEXT((#219,#221,#222))
REPRESENTATION_CONTEXT('','3D')
);
#218=(
GEOMETRIC_REPRESENTATION_CONTEXT(3)
GLOBAL_UNCERTAINTY_ASSIGNED_CONTEXT((#216))
GLOBAL_UNIT_ASSIGNED_CONTEXT((#219,#221,#222))
REPRESENTATION_CONTEXT('','3D')
);
#219=(
LENGTH_UNIT()
NAMED_UNIT(*)
SI_UNIT(.MILLI.,.METRE.)
);
#220=(
LENGTH_UNIT()
NAMED_UNIT(*)
SI_UNIT($,.METRE.)
);
#221=(
NAMED_UNIT(*)
PLANE_ANGLE_UNIT()
SI_UNIT($,.RADIAN.)
);
#222=(
NAMED_UNIT(*)
SI_UNIT($,.STERADIAN.)
SOLID_ANGLE_UNIT()
);
#223=SHAPE_DEFINITION_REPRESENTATION(#224,#225);
#224=PRODUCT_DEFINITION_SHAPE('',$,#227);
#225=SHAPE_REPRESENTATION('',(#124),#217);
#226=PRODUCT_DEFINITION_CONTEXT('part definition',#231,'design');
#227=PRODUCT_DEFINITION('bed riser','bed riser v1',#228,#226);
#228=PRODUCT_DEFINITION_FORMATION('',$,#233);
#229=PRODUCT_RELATED_PRODUCT_CATEGORY('bed riser v1','bed riser v1',(#233));
#230=APPLICATION_PROTOCOL_DEFINITION('international standard',
'automotive_design',2009,#231);
#231=APPLICATION_CONTEXT(
'Core Data for Automotive Mechanical Design Process');
#232=PRODUCT_CONTEXT('part definition',#231,'mechanical');
#233=PRODUCT('bed riser','bed riser v1',$,(#232));
#234=PRESENTATION_STYLE_ASSIGNMENT((#235));
#235=SURFACE_STYLE_USAGE(.BOTH.,#236);
#236=SURFACE_SIDE_STYLE('',(#237));
#237=SURFACE_STYLE_FILL_AREA(#238);
#238=FILL_AREA_STYLE('Steel - Satin',(#239));
#239=FILL_AREA_STYLE_COLOUR('Steel - Satin',#240);
#240=COLOUR_RGB('Steel - Satin',0.627450980392157,0.627450980392157,0.627450980392157);
ENDSEC;
END-ISO-10303-21;
