ISO-10303-21;
HEADER;
/* Generated by software containing ST-Developer
 * from STEP Tools, Inc. (www.steptools.com) 
 */

FILE_DESCRIPTION(
/* description */ (''),
/* implementation_level */ '2;1');

FILE_NAME(
/* name */ 'UPS Monitor Rack Mount - lid.step',
/* time_stamp */ '2025-10-02T15:10:51+13:00',
/* author */ (''),
/* organization */ (''),
/* preprocessor_version */ 'ST-DEVELOPER v20.1',
/* originating_system */ 'Autodesk Translation Framework v14.17.0.0',
/* authorisation */ '');

FILE_SCHEMA (('AUTOMOTIVE_DESIGN { 1 0 10303 214 3 1 1 }'));
ENDSEC;

DATA;
#10=MECHANICAL_DESIGN_GEOMETRIC_PRESENTATION_REPRESENTATION('',(#13),#369);
#11=SHAPE_REPRESENTATION_RELATIONSHIP('SRR','None',#375,#12);
#12=ADVANCED_BREP_SHAPE_REPRESENTATION('',(#14),#368);
#13=STYLED_ITEM('',(#384),#14);
#14=MANIFOLD_SOLID_BREP('lid',#233);
#15=FACE_OUTER_BOUND('',#27,.T.);
#16=FACE_OUTER_BOUND('',#28,.T.);
#17=FACE_OUTER_BOUND('',#29,.T.);
#18=FACE_OUTER_BOUND('',#30,.T.);
#19=FACE_OUTER_BOUND('',#31,.T.);
#20=FACE_OUTER_BOUND('',#32,.T.);
#21=FACE_OUTER_BOUND('',#33,.T.);
#22=FACE_OUTER_BOUND('',#34,.T.);
#23=FACE_OUTER_BOUND('',#35,.T.);
#24=FACE_OUTER_BOUND('',#36,.T.);
#25=FACE_OUTER_BOUND('',#37,.T.);
#26=FACE_OUTER_BOUND('',#38,.T.);
#27=EDGE_LOOP('',(#149,#150,#151,#152,#153,#154,#155,#156));
#28=EDGE_LOOP('',(#157,#158,#159,#160));
#29=EDGE_LOOP('',(#161,#162,#163,#164,#165));
#30=EDGE_LOOP('',(#166,#167,#168,#169));
#31=EDGE_LOOP('',(#170,#171,#172,#173));
#32=EDGE_LOOP('',(#174,#175,#176,#177,#178));
#33=EDGE_LOOP('',(#179,#180,#181,#182));
#34=EDGE_LOOP('',(#183,#184,#185,#186));
#35=EDGE_LOOP('',(#187,#188,#189,#190));
#36=EDGE_LOOP('',(#191,#192,#193,#194,#195,#196,#197,#198,#199,#200));
#37=EDGE_LOOP('',(#201,#202,#203,#204));
#38=EDGE_LOOP('',(#205,#206,#207,#208));
#39=LINE('',#307,#69);
#40=LINE('',#309,#70);
#41=LINE('',#311,#71);
#42=LINE('',#313,#72);
#43=LINE('',#315,#73);
#44=LINE('',#317,#74);
#45=LINE('',#319,#75);
#46=LINE('',#320,#76);
#47=LINE('',#323,#77);
#48=LINE('',#325,#78);
#49=LINE('',#326,#79);
#50=LINE('',#329,#80);
#51=LINE('',#331,#81);
#52=LINE('',#332,#82);
#53=LINE('',#335,#83);
#54=LINE('',#336,#84);
#55=LINE('',#339,#85);
#56=LINE('',#341,#86);
#57=LINE('',#342,#87);
#58=LINE('',#345,#88);
#59=LINE('',#347,#89);
#60=LINE('',#348,#90);
#61=LINE('',#351,#91);
#62=LINE('',#352,#92);
#63=LINE('',#355,#93);
#64=LINE('',#356,#94);
#65=LINE('',#358,#95);
#66=LINE('',#361,#96);
#67=LINE('',#362,#97);
#68=LINE('',#364,#98);
#69=VECTOR('',#251,10.);
#70=VECTOR('',#252,10.);
#71=VECTOR('',#253,10.);
#72=VECTOR('',#254,10.);
#73=VECTOR('',#255,10.);
#74=VECTOR('',#256,10.);
#75=VECTOR('',#257,10.);
#76=VECTOR('',#258,10.);
#77=VECTOR('',#261,10.);
#78=VECTOR('',#262,10.);
#79=VECTOR('',#263,10.);
#80=VECTOR('',#266,10.);
#81=VECTOR('',#267,10.);
#82=VECTOR('',#268,10.);
#83=VECTOR('',#271,10.);
#84=VECTOR('',#272,10.);
#85=VECTOR('',#275,10.);
#86=VECTOR('',#276,10.);
#87=VECTOR('',#277,10.);
#88=VECTOR('',#280,10.);
#89=VECTOR('',#281,10.);
#90=VECTOR('',#282,10.);
#91=VECTOR('',#285,10.);
#92=VECTOR('',#286,10.);
#93=VECTOR('',#289,10.);
#94=VECTOR('',#290,10.);
#95=VECTOR('',#293,10.);
#96=VECTOR('',#296,10.);
#97=VECTOR('',#297,10.);
#98=VECTOR('',#300,10.);
#99=VERTEX_POINT('',#305);
#100=VERTEX_POINT('',#306);
#101=VERTEX_POINT('',#308);
#102=VERTEX_POINT('',#310);
#103=VERTEX_POINT('',#312);
#104=VERTEX_POINT('',#314);
#105=VERTEX_POINT('',#316);
#106=VERTEX_POINT('',#318);
#107=VERTEX_POINT('',#322);
#108=VERTEX_POINT('',#324);
#109=VERTEX_POINT('',#328);
#110=VERTEX_POINT('',#330);
#111=VERTEX_POINT('',#334);
#112=VERTEX_POINT('',#338);
#113=VERTEX_POINT('',#340);
#114=VERTEX_POINT('',#344);
#115=VERTEX_POINT('',#346);
#116=VERTEX_POINT('',#350);
#117=VERTEX_POINT('',#354);
#118=VERTEX_POINT('',#360);
#119=EDGE_CURVE('',#99,#100,#39,.T.);
#120=EDGE_CURVE('',#101,#99,#40,.T.);
#121=EDGE_CURVE('',#102,#101,#41,.T.);
#122=EDGE_CURVE('',#103,#102,#42,.T.);
#123=EDGE_CURVE('',#104,#103,#43,.T.);
#124=EDGE_CURVE('',#105,#104,#44,.T.);
#125=EDGE_CURVE('',#106,#105,#45,.T.);
#126=EDGE_CURVE('',#100,#106,#46,.T.);
#127=EDGE_CURVE('',#107,#104,#47,.T.);
#128=EDGE_CURVE('',#108,#107,#48,.T.);
#129=EDGE_CURVE('',#108,#105,#49,.T.);
#130=EDGE_CURVE('',#103,#109,#50,.T.);
#131=EDGE_CURVE('',#109,#110,#51,.T.);
#132=EDGE_CURVE('',#110,#107,#52,.T.);
#133=EDGE_CURVE('',#102,#111,#53,.T.);
#134=EDGE_CURVE('',#111,#109,#54,.T.);
#135=EDGE_CURVE('',#99,#112,#55,.T.);
#136=EDGE_CURVE('',#112,#113,#56,.T.);
#137=EDGE_CURVE('',#113,#101,#57,.T.);
#138=EDGE_CURVE('',#114,#100,#58,.T.);
#139=EDGE_CURVE('',#114,#115,#59,.T.);
#140=EDGE_CURVE('',#112,#115,#60,.T.);
#141=EDGE_CURVE('',#106,#116,#61,.T.);
#142=EDGE_CURVE('',#114,#116,#62,.T.);
#143=EDGE_CURVE('',#111,#117,#63,.T.);
#144=EDGE_CURVE('',#117,#110,#64,.T.);
#145=EDGE_CURVE('',#108,#117,#65,.T.);
#146=EDGE_CURVE('',#118,#113,#66,.T.);
#147=EDGE_CURVE('',#116,#118,#67,.T.);
#148=EDGE_CURVE('',#115,#118,#68,.T.);
#149=ORIENTED_EDGE('',*,*,#119,.F.);
#150=ORIENTED_EDGE('',*,*,#120,.F.);
#151=ORIENTED_EDGE('',*,*,#121,.F.);
#152=ORIENTED_EDGE('',*,*,#122,.F.);
#153=ORIENTED_EDGE('',*,*,#123,.F.);
#154=ORIENTED_EDGE('',*,*,#124,.F.);
#155=ORIENTED_EDGE('',*,*,#125,.F.);
#156=ORIENTED_EDGE('',*,*,#126,.F.);
#157=ORIENTED_EDGE('',*,*,#124,.T.);
#158=ORIENTED_EDGE('',*,*,#127,.F.);
#159=ORIENTED_EDGE('',*,*,#128,.F.);
#160=ORIENTED_EDGE('',*,*,#129,.T.);
#161=ORIENTED_EDGE('',*,*,#123,.T.);
#162=ORIENTED_EDGE('',*,*,#130,.T.);
#163=ORIENTED_EDGE('',*,*,#131,.T.);
#164=ORIENTED_EDGE('',*,*,#132,.T.);
#165=ORIENTED_EDGE('',*,*,#127,.T.);
#166=ORIENTED_EDGE('',*,*,#122,.T.);
#167=ORIENTED_EDGE('',*,*,#133,.T.);
#168=ORIENTED_EDGE('',*,*,#134,.T.);
#169=ORIENTED_EDGE('',*,*,#130,.F.);
#170=ORIENTED_EDGE('',*,*,#120,.T.);
#171=ORIENTED_EDGE('',*,*,#135,.T.);
#172=ORIENTED_EDGE('',*,*,#136,.T.);
#173=ORIENTED_EDGE('',*,*,#137,.T.);
#174=ORIENTED_EDGE('',*,*,#119,.T.);
#175=ORIENTED_EDGE('',*,*,#138,.F.);
#176=ORIENTED_EDGE('',*,*,#139,.T.);
#177=ORIENTED_EDGE('',*,*,#140,.F.);
#178=ORIENTED_EDGE('',*,*,#135,.F.);
#179=ORIENTED_EDGE('',*,*,#126,.T.);
#180=ORIENTED_EDGE('',*,*,#141,.T.);
#181=ORIENTED_EDGE('',*,*,#142,.F.);
#182=ORIENTED_EDGE('',*,*,#138,.T.);
#183=ORIENTED_EDGE('',*,*,#143,.T.);
#184=ORIENTED_EDGE('',*,*,#144,.T.);
#185=ORIENTED_EDGE('',*,*,#131,.F.);
#186=ORIENTED_EDGE('',*,*,#134,.F.);
#187=ORIENTED_EDGE('',*,*,#145,.F.);
#188=ORIENTED_EDGE('',*,*,#128,.T.);
#189=ORIENTED_EDGE('',*,*,#132,.F.);
#190=ORIENTED_EDGE('',*,*,#144,.F.);
#191=ORIENTED_EDGE('',*,*,#125,.T.);
#192=ORIENTED_EDGE('',*,*,#129,.F.);
#193=ORIENTED_EDGE('',*,*,#145,.T.);
#194=ORIENTED_EDGE('',*,*,#143,.F.);
#195=ORIENTED_EDGE('',*,*,#133,.F.);
#196=ORIENTED_EDGE('',*,*,#121,.T.);
#197=ORIENTED_EDGE('',*,*,#137,.F.);
#198=ORIENTED_EDGE('',*,*,#146,.F.);
#199=ORIENTED_EDGE('',*,*,#147,.F.);
#200=ORIENTED_EDGE('',*,*,#141,.F.);
#201=ORIENTED_EDGE('',*,*,#146,.T.);
#202=ORIENTED_EDGE('',*,*,#136,.F.);
#203=ORIENTED_EDGE('',*,*,#140,.T.);
#204=ORIENTED_EDGE('',*,*,#148,.T.);
#205=ORIENTED_EDGE('',*,*,#147,.T.);
#206=ORIENTED_EDGE('',*,*,#148,.F.);
#207=ORIENTED_EDGE('',*,*,#139,.F.);
#208=ORIENTED_EDGE('',*,*,#142,.T.);
#209=PLANE('',#235);
#210=PLANE('',#236);
#211=PLANE('',#237);
#212=PLANE('',#238);
#213=PLANE('',#239);
#214=PLANE('',#240);
#215=PLANE('',#241);
#216=PLANE('',#242);
#217=PLANE('',#243);
#218=PLANE('',#244);
#219=PLANE('',#245);
#220=PLANE('',#246);
#221=ADVANCED_FACE('',(#15),#209,.F.);
#222=ADVANCED_FACE('',(#16),#210,.T.);
#223=ADVANCED_FACE('',(#17),#211,.T.);
#224=ADVANCED_FACE('',(#18),#212,.T.);
#225=ADVANCED_FACE('',(#19),#213,.T.);
#226=ADVANCED_FACE('',(#20),#214,.T.);
#227=ADVANCED_FACE('',(#21),#215,.T.);
#228=ADVANCED_FACE('',(#22),#216,.T.);
#229=ADVANCED_FACE('',(#23),#217,.T.);
#230=ADVANCED_FACE('',(#24),#218,.T.);
#231=ADVANCED_FACE('',(#25),#219,.T.);
#232=ADVANCED_FACE('',(#26),#220,.T.);
#233=CLOSED_SHELL('',(#221,#222,#223,#224,#225,#226,#227,#228,#229,#230,
#231,#232));
#234=AXIS2_PLACEMENT_3D('',#303,#247,#248);
#235=AXIS2_PLACEMENT_3D('',#304,#249,#250);
#236=AXIS2_PLACEMENT_3D('',#321,#259,#260);
#237=AXIS2_PLACEMENT_3D('',#327,#264,#265);
#238=AXIS2_PLACEMENT_3D('',#333,#269,#270);
#239=AXIS2_PLACEMENT_3D('',#337,#273,#274);
#240=AXIS2_PLACEMENT_3D('',#343,#278,#279);
#241=AXIS2_PLACEMENT_3D('',#349,#283,#284);
#242=AXIS2_PLACEMENT_3D('',#353,#287,#288);
#243=AXIS2_PLACEMENT_3D('',#357,#291,#292);
#244=AXIS2_PLACEMENT_3D('',#359,#294,#295);
#245=AXIS2_PLACEMENT_3D('',#363,#298,#299);
#246=AXIS2_PLACEMENT_3D('',#365,#301,#302);
#247=DIRECTION('axis',(0.,0.,1.));
#248=DIRECTION('refdir',(1.,0.,0.));
#249=DIRECTION('center_axis',(0.,-1.,0.));
#250=DIRECTION('ref_axis',(0.,0.,-1.));
#251=DIRECTION('',(-1.,0.,0.));
#252=DIRECTION('',(0.,0.,1.));
#253=DIRECTION('',(-1.,0.,0.));
#254=DIRECTION('',(0.,0.,1.));
#255=DIRECTION('',(1.,0.,0.));
#256=DIRECTION('',(0.,0.,-1.));
#257=DIRECTION('',(-1.,0.,0.));
#258=DIRECTION('',(0.,0.,-1.));
#259=DIRECTION('center_axis',(-1.,-1.1655705870021E-16,0.));
#260=DIRECTION('ref_axis',(-1.1655705870021E-16,1.,0.));
#261=DIRECTION('',(-1.1655705870021E-16,1.,0.));
#262=DIRECTION('',(0.,0.,-1.));
#263=DIRECTION('',(-1.1655705870021E-16,1.,0.));
#264=DIRECTION('center_axis',(0.,0.,-1.));
#265=DIRECTION('ref_axis',(-1.,0.,0.));
#266=DIRECTION('',(0.,-1.,0.));
#267=DIRECTION('',(-1.,-1.50640844589573E-17,0.));
#268=DIRECTION('',(-0.707106805339243,0.707106757033852,0.));
#269=DIRECTION('center_axis',(1.,0.,0.));
#270=DIRECTION('ref_axis',(0.,-1.,0.));
#271=DIRECTION('',(0.,-1.,0.));
#272=DIRECTION('',(0.,0.,-1.));
#273=DIRECTION('center_axis',(1.,0.,0.));
#274=DIRECTION('ref_axis',(0.,-1.,0.));
#275=DIRECTION('',(0.,-1.,0.));
#276=DIRECTION('',(0.,0.,-1.));
#277=DIRECTION('',(0.,1.,0.));
#278=DIRECTION('center_axis',(0.,0.,1.));
#279=DIRECTION('ref_axis',(1.,0.,0.));
#280=DIRECTION('',(-2.78111980116522E-17,1.,0.));
#281=DIRECTION('',(0.707106805339243,-0.707106757033852,0.));
#282=DIRECTION('',(-1.,2.04555140419191E-17,0.));
#283=DIRECTION('center_axis',(-1.,-2.78111980116522E-17,0.));
#284=DIRECTION('ref_axis',(-2.78111980116522E-17,1.,0.));
#285=DIRECTION('',(2.78111980116522E-17,-1.,0.));
#286=DIRECTION('',(0.,0.,-1.));
#287=DIRECTION('center_axis',(1.50640844589573E-17,-1.,0.));
#288=DIRECTION('ref_axis',(-1.,-1.50640844589573E-17,0.));
#289=DIRECTION('',(-1.,-1.50640844589573E-17,0.));
#290=DIRECTION('',(0.,0.,-1.));
#291=DIRECTION('center_axis',(-0.707106757033852,-0.707106805339243,0.));
#292=DIRECTION('ref_axis',(-0.707106805339243,0.707106757033852,0.));
#293=DIRECTION('',(0.707106805339243,-0.707106757033852,0.));
#294=DIRECTION('center_axis',(0.,0.,1.));
#295=DIRECTION('ref_axis',(1.,0.,0.));
#296=DIRECTION('',(1.,-2.04555140419191E-17,0.));
#297=DIRECTION('',(0.707106805339243,-0.707106757033852,0.));
#298=DIRECTION('center_axis',(-2.04555140419191E-17,-1.,0.));
#299=DIRECTION('ref_axis',(-1.,2.04555140419191E-17,0.));
#300=DIRECTION('',(0.,0.,-1.));
#301=DIRECTION('center_axis',(-0.707106757033852,-0.707106805339243,0.));
#302=DIRECTION('ref_axis',(-0.707106805339243,0.707106757033852,0.));
#303=CARTESIAN_POINT('',(0.,0.,0.));
#304=CARTESIAN_POINT('Origin',(3.2,146.8,0.));
#305=CARTESIAN_POINT('',(220.3,146.8,0.));
#306=CARTESIAN_POINT('',(3.2,146.8,0.));
#307=CARTESIAN_POINT('',(57.475,146.8,0.));
#308=CARTESIAN_POINT('',(220.3,146.8,-1.7));
#309=CARTESIAN_POINT('',(220.3,146.8,0.));
#310=CARTESIAN_POINT('',(222.3,146.8,-1.7));
#311=CARTESIAN_POINT('',(57.475,146.8,-1.7));
#312=CARTESIAN_POINT('',(222.3,146.8,-3.3));
#313=CARTESIAN_POINT('',(222.3,146.8,-0.85));
#314=CARTESIAN_POINT('',(1.19999999999997,146.8,-3.3));
#315=CARTESIAN_POINT('',(57.475,146.8,-3.3));
#316=CARTESIAN_POINT('',(1.19999999999997,146.8,-1.7));
#317=CARTESIAN_POINT('',(1.19999999999999,146.8,-0.85));
#318=CARTESIAN_POINT('',(3.2,146.8,-1.7));
#319=CARTESIAN_POINT('',(57.475,146.8,-1.7));
#320=CARTESIAN_POINT('',(3.2,146.8,0.));
#321=CARTESIAN_POINT('Origin',(1.20000000000001,16.2392606139663,-1.7));
#322=CARTESIAN_POINT('',(1.20000000000001,16.2392606139663,-3.3));
#323=CARTESIAN_POINT('',(1.20000000000001,5.19999999999999,-3.3));
#324=CARTESIAN_POINT('',(1.20000000000001,16.2392606139663,-1.7));
#325=CARTESIAN_POINT('',(1.20000000000001,16.2392606139663,-1.7));
#326=CARTESIAN_POINT('',(1.20000000000001,5.19999999999999,-1.7));
#327=CARTESIAN_POINT('Origin',(111.75,107.,-3.3));
#328=CARTESIAN_POINT('',(222.3,5.2,-3.3));
#329=CARTESIAN_POINT('',(222.3,208.8,-3.3));
#330=CARTESIAN_POINT('',(12.239261368104,5.19999999999999,-3.3));
#331=CARTESIAN_POINT('',(222.3,5.2,-3.3));
#332=CARTESIAN_POINT('',(1.72720783733907,15.712052812643,-3.3));
#333=CARTESIAN_POINT('Origin',(222.3,207.,-1.7));
#334=CARTESIAN_POINT('',(222.3,5.2,-1.7));
#335=CARTESIAN_POINT('',(222.3,208.8,-1.7));
#336=CARTESIAN_POINT('',(222.3,5.2,-1.7));
#337=CARTESIAN_POINT('Origin',(220.3,206.8,0.));
#338=CARTESIAN_POINT('',(220.3,7.19999999999999,0.));
#339=CARTESIAN_POINT('',(220.3,206.8,0.));
#340=CARTESIAN_POINT('',(220.3,7.19999999999999,-1.7));
#341=CARTESIAN_POINT('',(220.3,7.19999999999999,0.));
#342=CARTESIAN_POINT('',(220.3,156.45,-1.7));
#343=CARTESIAN_POINT('Origin',(111.75,107.,0.));
#344=CARTESIAN_POINT('',(3.2,17.06768777873,0.));
#345=CARTESIAN_POINT('',(3.2,7.19999999999999,0.));
#346=CARTESIAN_POINT('',(13.0676884528327,7.2,0.));
#347=CARTESIAN_POINT('',(3.14142135140677,17.1262664233215,0.));
#348=CARTESIAN_POINT('',(220.3,7.19999999999999,0.));
#349=CARTESIAN_POINT('Origin',(3.2,17.06768777873,0.));
#350=CARTESIAN_POINT('',(3.2,17.06768777873,-1.7));
#351=CARTESIAN_POINT('',(3.2,61.583843889365,-1.7));
#352=CARTESIAN_POINT('',(3.2,17.06768777873,0.));
#353=CARTESIAN_POINT('Origin',(222.3,5.2,-1.7));
#354=CARTESIAN_POINT('',(12.239261368104,5.19999999999999,-1.7));
#355=CARTESIAN_POINT('',(222.3,5.2,-1.7));
#356=CARTESIAN_POINT('',(12.239261368104,5.19999999999999,-1.7));
#357=CARTESIAN_POINT('Origin',(12.239261368104,5.19999999999999,-1.7));
#358=CARTESIAN_POINT('',(1.72720783733907,15.712052812643,-1.7));
#359=CARTESIAN_POINT('Origin',(111.75,106.1,-1.7));
#360=CARTESIAN_POINT('',(13.0676884528327,7.2,-1.7));
#361=CARTESIAN_POINT('',(166.025,7.19999999999999,-1.7));
#362=CARTESIAN_POINT('',(13.0132680249738,7.25442042414113,-1.7));
#363=CARTESIAN_POINT('Origin',(220.3,7.19999999999999,0.));
#364=CARTESIAN_POINT('',(13.0676884528327,7.2,0.));
#365=CARTESIAN_POINT('Origin',(13.0676884528327,7.2,0.));
#366=UNCERTAINTY_MEASURE_WITH_UNIT(LENGTH_MEASURE(0.01),#370,
'DISTANCE_ACCURACY_VALUE',
'Maximum model space distance between geometric entities at asserted c
onnectivities');
#367=UNCERTAINTY_MEASURE_WITH_UNIT(LENGTH_MEASURE(0.01),#370,
'DISTANCE_ACCURACY_VALUE',
'Maximum model space distance between geometric entities at asserted c
onnectivities');
#368=(
GEOMETRIC_REPRESENTATION_CONTEXT(3)
GLOBAL_UNCERTAINTY_ASSIGNED_CONTEXT((#366))
GLOBAL_UNIT_ASSIGNED_CONTEXT((#370,#371,#372))
REPRESENTATION_CONTEXT('','3D')
);
#369=(
GEOMETRIC_REPRESENTATION_CONTEXT(3)
GLOBAL_UNCERTAINTY_ASSIGNED_CONTEXT((#367))
GLOBAL_UNIT_ASSIGNED_CONTEXT((#370,#371,#372))
REPRESENTATION_CONTEXT('','3D')
);
#370=(
LENGTH_UNIT()
NAMED_UNIT(*)
SI_UNIT(.MILLI.,.METRE.)
);
#371=(
NAMED_UNIT(*)
PLANE_ANGLE_UNIT()
SI_UNIT($,.RADIAN.)
);
#372=(
NAMED_UNIT(*)
SI_UNIT($,.STERADIAN.)
SOLID_ANGLE_UNIT()
);
#373=SHAPE_DEFINITION_REPRESENTATION(#374,#375);
#374=PRODUCT_DEFINITION_SHAPE('',$,#377);
#375=SHAPE_REPRESENTATION('',(#234),#368);
#376=PRODUCT_DEFINITION_CONTEXT('part definition',#381,'design');
#377=PRODUCT_DEFINITION('UPS Monitor Rack Mount',
'UPS Monitor Rack Mount v7',#378,#376);
#378=PRODUCT_DEFINITION_FORMATION('',$,#383);
#379=PRODUCT_RELATED_PRODUCT_CATEGORY('UPS Monitor Rack Mount v7',
'UPS Monitor Rack Mount v7',(#383));
#380=APPLICATION_PROTOCOL_DEFINITION('international standard',
'automotive_design',2009,#381);
#381=APPLICATION_CONTEXT(
'Core Data for Automotive Mechanical Design Process');
#382=PRODUCT_CONTEXT('part definition',#381,'mechanical');
#383=PRODUCT('UPS Monitor Rack Mount','UPS Monitor Rack Mount v7',$,(#382));
#384=PRESENTATION_STYLE_ASSIGNMENT((#387));
#385=PRESENTATION_STYLE_ASSIGNMENT((#388));
#386=PRESENTATION_STYLE_ASSIGNMENT((#389));
#387=SURFACE_STYLE_USAGE(.BOTH.,#390);
#388=SURFACE_STYLE_USAGE(.BOTH.,#391);
#389=SURFACE_STYLE_USAGE(.BOTH.,#392);
#390=SURFACE_SIDE_STYLE('',(#393));
#391=SURFACE_SIDE_STYLE('',(#394));
#392=SURFACE_SIDE_STYLE('',(#395));
#393=SURFACE_STYLE_FILL_AREA(#396);
#394=SURFACE_STYLE_FILL_AREA(#397);
#395=SURFACE_STYLE_FILL_AREA(#398);
#396=FILL_AREA_STYLE('Steel - Satin',(#399));
#397=FILL_AREA_STYLE(
'HP 3D HR CB PA 12 (with HP Jet Fusion 580 Color 3D Printer)',(#400));
#398=FILL_AREA_STYLE('Nylon 12 (with Formlabs Fuse 1 3D Printer)',(#401));
#399=FILL_AREA_STYLE_COLOUR('Steel - Satin',#402);
#400=FILL_AREA_STYLE_COLOUR(
'HP 3D HR CB PA 12 (with HP Jet Fusion 580 Color 3D Printer)',#403);
#401=FILL_AREA_STYLE_COLOUR(
'Nylon 12 (with Formlabs Fuse 1 3D Printer)',#404);
#402=COLOUR_RGB('Steel - Satin',0.627450980392157,0.627450980392157,0.627450980392157);
#403=COLOUR_RGB(
'HP 3D HR CB PA 12 (with HP Jet Fusion 580 Color 3D Printer)',0.964705882352941,
0.964705882352941,0.952941176470588);
#404=COLOUR_RGB('Nylon 12 (with Formlabs Fuse 1 3D Printer)',0.247058823529412,
0.247058823529412,0.247058823529412);
ENDSEC;
END-ISO-10303-21;
